Grup Hepsi Fan Club Fan Club ツ
SevgiLi Misafir ~
Forum'dan YaRarLanmak İçin Üye oLmaLısın (:
Üye oL Hemen , Bize KatıL ..
En Grup Hepsicilerin Sitesi Sadece Burası ..
Üye oLursan İnan Pişman Olmayacaksın (:

Grup Hepsi Fan Club Fan Club ツ

HoşgeLdiniz , Misafir.
Son Ziyaretiniz ,
Toplam Mesajınız , 26
Son Üyemiz ,Yelomi

 
AnasayfaAnasayfa  KapıKapı  Kayıt OlKayıt Ol  Giriş yapGiriş yap  

Paylaş | 
 

 Don'T Jump [akor ve tablar]

Aşağa gitmek 
YazarMesaj
BTkaulitz*
!!..уєρ уєηι üує
!!..уєρ уєηι üує
avatar

Kadın Mesaj Sayısı : 34
Yaş : 22
Nerden : Tom*un KaLbinden xD
Lakap : Tomunki - Sasy xD
Ruh HaLi ? :
SanaL Hayvan ? :
Hanqi Takım?? :
Hanqi Eş?? :
Başarı Sistemi : 0
Rep Gücü : 17
Kayıt tarihi : 01/03/09

MesajKonu: Don'T Jump [akor ve tablar]   Paz Mart 01, 2009 4:35 pm

Arkadaşlar eksikler ufak tefek olabilir...
Intro: (İlk gitar)
--------4----------2-----------0-----------------------------|
-----------5----------4-----------2---------4--0--22222222---|
--------------------------------------------------22222222---|
--------------------------------------------------22222222---|
--4----------------------------------------------------------|
-------------------------------------------------------------|

(İki gitar birlikte aynı anda)

(İlk gitar)
--------4----------2-----------0-----------------------------|
-----------5----------4-----------2---------4--0--22222222---|
--------------------------------------------------22222222---| x4
--------------------------------------------------22222222---|
--4----------------------------------------------------------|
-------------------------------------------------------------|

(İkinci gitar)
(C#m) (A)
------------------------------------------------------------------|
--------5-----------5----------2-----------2----------------------|
------6---6-------6---6------2---2-------2---2--------------------| x4
----6-------6---6-------6---2-------2---2-------2-----------------|
--4-----------4-----------0-----------0---------------------------|
------------------------------------------------------------------|

C#m
On top of the roof
A B
The air is so cold and so calm
C#m
I say your name in silence
A B
You don't want to hear it right now
C#m
The eyes of the city
A B
Are counting the tears falling down
C#m
Each one a promise of everything
A
You never found


A
I scream into the night for you
B
Don't make it true
F#
Don't jump
A
The lights will not guide you through
B
They're deceiving you
F#
Don't jump
A
Don't let memories go
B
Of me and you
F#
The world is down there
A
Out of view
C#m
Please don't jump


C#m
You open your eyes
A B
But you can't remember what for
C#m
The snow falls quietly
A B
You just can't feel it no more
C#m
Somewhere up there

A B
You lost yourself in your pain
C#m
You dream of the end
A
To start all over again


A
I scream into the night for you
B
Don't make it true
F#
Don't jump
A
The lights will not guide you through
B
They're deceiving you
F#
Don't jump
A
Don't let memories go
B
Of me and you
F#
The world is down there
A
Out of view
A
Please don't jump
A
Don't jump

A B C#m A x2

A B C#m A
I don't know how long
A B C#m A
I can hold you so strong
A B C#m A
I don't know how long
A
Just take my hand
B
Give it a chance
C#m
Don't jump

A
I scream into the night for you
B
Don't make it true
F#
Don't jump
A
The lights will not guide you through
B
They're deceiving you
F#
Don't jump
A
Don't let memories go
B
Of me and you
F#
The world is down there
A
Out of view
A
Please don't jump
B
Don't jump
F# A
And ïf all that can't hold you back
C#m
I'll jump for you.
Sayfa başına dön Aşağa gitmek
Kullanıcı profilini gör
çılgın_avril
!!..ρяєηѕєѕ
!!..ρяєηѕєѕ
avatar

Kadın Mesaj Sayısı : 1439
Yaş : 21
Nerden : avrilin kalbinden
Lakap : çılgın-avril
Ruh HaLi ? :
SanaL Hayvan ? :
Hanqi Takım?? :
Hanqi Eş?? :
Başarı Sistemi : 20
Rep Gücü : 1409
Kayıt tarihi : 08/03/09

MesajKonu: Geri: Don'T Jump [akor ve tablar]   Perş. Mart 12, 2009 4:21 pm

saol
Sayfa başına dön Aşağa gitmek
Kullanıcı profilini gör http://gruphepsiavrilfan.getgoo.us/forum.htm
CraméL''
!!..αdмιη
!!..αdмιη
avatar

Kadın Mesaj Sayısı : 2559
Yaş : 23
Nerden : erenim kaLßinDen..!!!
Lakap : En Yaso-ju KişiLik
Ruh HaLi ? :
SanaL Hayvan ? :
Hanqi Takım?? :
Hanqi Eş?? :
Başarı Sistemi : 11
Rep Gücü : 1016
Kayıt tarihi : 04/04/08

MesajKonu: Geri: Don'T Jump [akor ve tablar]   Cuma Mart 13, 2009 5:25 pm

saqol canımmm

_________________
CraméL''

Bir Sevda Masalım , nasıl bir aşkla girdin kalbime .
Depremler yarattın gönlümde ,
Herşeyim sonsuz aşkım Seni Çok Seviyorum ..

''CrameL'' yazan her imza tamamen bana aittir .. !!

Sayfa başına dön Aşağa gitmek
Kullanıcı profilini gör http://www.hepsicilerclub.turkforumpro.com
BTkaulitz*
!!..уєρ уєηι üує
!!..уєρ уєηι üує
avatar

Kadın Mesaj Sayısı : 34
Yaş : 22
Nerden : Tom*un KaLbinden xD
Lakap : Tomunki - Sasy xD
Ruh HaLi ? :
SanaL Hayvan ? :
Hanqi Takım?? :
Hanqi Eş?? :
Başarı Sistemi : 0
Rep Gücü : 17
Kayıt tarihi : 01/03/09

MesajKonu: Geri: Don'T Jump [akor ve tablar]   Paz Nis. 05, 2009 1:19 pm

Bir şey değil :)
Sayfa başına dön Aşağa gitmek
Kullanıcı profilini gör
~ShéSouL
!!..ѕєνιує 8
!!..ѕєνιує 8
avatar

Kadın Mesaj Sayısı : 877
Yaş : 21
Nerden : eNeSi*mn kaLbinDen [LL*
Lakap : aSi-muqişH
Ruh HaLi ? :
SanaL Hayvan ? :
Hanqi Takım?? :
Hanqi Eş?? :
Başarı Sistemi : 5
Rep Gücü : 902
Kayıt tarihi : 30/05/09

MesajKonu: Geri: Don'T Jump [akor ve tablar]   Çarş. Ağus. 19, 2009 3:08 pm

saoL Jnm . . .
Sayfa başına dön Aşağa gitmek
Kullanıcı profilini gör http://www.selenacilar.4forum.biz
 
Don'T Jump [akor ve tablar]
Sayfa başına dön 
1 sayfadaki 1 sayfası

Bu forumun müsaadesi var:Bu forumdaki mesajlara cevap veremezsiniz
Grup Hepsi Fan Club Fan Club ツ :: ÜnLüLer :: Yabancı ÜnLüLer-
Buraya geçin: